Change active repertoire

  • Gray Repertoire

  • Orange Repertoire

  • Purple Repertoire

  • Yellow Repertoire

  • Green Repertoire

  • Blue Repertoire

  • Pink Repertoire

Search

Bon Jovi - You Give Love A Bad Name - Chords

Please login to add to your repertoire;

Orginal Tone: Eb | D# | Cm
Selected Tone: |Capo: 0

Intro

e|--------------------------------|--------------------------------|
b|--------------------------------|--------------------------------|
g|10b12-10v-8-10b12r10-8----------|10b12-10v-8-10b12r10p8----------|
d|-----------------------10v-8-10-|-----------------------10v------|
a|--------------------------------|--------------------------------|
e|--------------------------------|--------------------------------|

e|--------------------------------|--------------------------------|
b|--------------------------------|--------------------------------|
g|10b12-10v-8-10b12r10-8----------|10b12-10v-----------------------|
d|-----------------------10v-8-10-|--------------------------------|
a|--------------------------------|--------------------------------|
e|--------------------------------|--------------------------------|


Riff

e|----------------|---------------|----------------|-----------------|
b|----------------|---------------|----------------|8\/8\/8\/8\------|
g|----------------|---------------|----------------|8\/8\/8\/8\------|
d|--------1-1-----|--------1-1----|--------1-1-----|8\/8\/8\/8\------|
a|3---1-3-----3-1-|3---1-3-----3v-|3---1-3-----3-1-|-----------------|
e|--3-------------|--3------------|--3-------------|-----------------|


Shot through the heart, and you're to blame, darlin' you give love a bad name
Cm G# A# Cm   G# A# D# Cm   Cm G# A# Cm   G# A#



    Cm                                  Cm
An angel's smile is what you sell, you promise me heaven, then put me through hell
  Cm                                   Cm
Chains of love got a hold on me, when passion's a prison, you can't break free


F                       Cm        A#
Oh you're a loaded gun yeah,      oh there's nowhere to run
F                        G
No one can save me, the damage is done


 Cm                G#        A#        Cm     G#       A#     D#  Cm
Shot through the heart, and you're to blame, you give love a bad name (bad name)
   Cm      G#           A#        Cm
I play my part and you play your game
 G#       A#     D#  Cm               G#       A#           Cm
You give love a bad name (bad name), you give love a bad name


 Cm                             Cm
Paint your smile on your lips, blood red nails on your fingertips
    Cm                                      Cm
A school boy's dream, you act so shy, your very first kiss was your first kiss goodbye 


F                       Cm A#
Oh you're a loaded gun yeah,     oh there's nowhere to run
F                        G
No one can save me, the damage is done


 Cm                G#         A#        Cm    G#       A#     D#  Cm
Shot through the heart, and you're to blame, you give love a bad name (bad name)
   Cm      G#           A#        Cm
I play my part and you play your game
 G#       A#     D#   Cm              G#        A#           Cm
You give love a bad name (bad name), you give love a bad name



 Cm                G#        A#        Cm     G#       A#     D#  Cm
Shot through the heart, and you're to blame, you give love a bad name (bad name)
   Cm      G#            A#       Cm
I play my part and you play your game
 G#       A#     D#  Cm              
You give love a bad name (bad name)
NotlarX
Tab
Make a Request

Contact

© copyright 2018-2021 akorculuk.com

Reklam engelleyici kullanıyorsunuz, destek için kapatmanızı rica ederiz