Change active repertoire

  • Gray Repertoire

  • Orange Repertoire

  • Purple Repertoire

  • Yellow Repertoire

  • Green Repertoire

  • Blue Repertoire

  • Pink Repertoire

Search

Johnny Cash - I Walk the Line - Chords

Please login to add to your repertoire;

Orginal Tone: F | Abm | G#m
Selected Tone: |Capo: 0



e|-----------------------------|------------------------|
B|-----------------------------|------------------------|
G|-----------------------------|------------------------|
D|---------------------1-----1-|-1----------------------|
A|-------1-----1-1-3-5----1----|---5-3-1-----1-1--------|
E|-1-3-5----1------------------|----------1------5-3-1--|

e|--------------------------------|
B|--------------------------------|
G|--------------------------------|
D|-------------2------------------|
A|-1-1-------3-3-3-1--------3-----|
E|-----1-3-1---------5-3-1-----1--|   



         C7                           F
I keep a close watch on this heart of mine
          C7                     F
I keep my eyes wide open all the time.
           A#                        F
I keep the ends out for the tie that binds
               C7               F
Because you're mine, I walk the line



          F7                    A#
I find it very, very easy to be true
          F7                         A#
I find myself alone when each day is through
            D#                 A#
Yes, I'll admit that I'm a fool for you
               F7               A#
Because you're mine, I walk the line


            A#7                     D#
As sure as night is dark and day is light
           A#7                     D#
I keep you on my mind both day and night
          G#                              D#
And happiness I've known proves that it's right
              A#7               D#
Because you're mine, I walk the line


             F7                     A#
You've got a way to keep me on your side
            F7                        A#
You give me cause for love that I can't hide
           D#                           A#
For you I know I'd even try to turn the tide
               F7               A#
Because you're mine, I walk the line


         C7                           F
I keep a close watch on this heart of mine
          C7                     F
I keep my eyes wide open all the time.
           A#                        F
I keep the ends out for the tie that binds
               C7               F
Because you're mine, I walk the line
NotlarX
Tab
Make a Request

Contact

© copyright 2018-2021 akorculuk.com

Reklam engelleyici kullanıyorsunuz, destek için kapatmanızı rica ederiz